ISO-10303-21;
HEADER;
FILE_DESCRIPTION (( 'STEP AP203' ),
    '1' );
FILE_NAME ('QM-AAQWP-20-900-2100-M.STEP',
    '2021-01-05T02:43:31',
    ( '' ),
    ( '' ),
    'SwSTEP 2.0',
    'SolidWorks 2020',
    '' );
FILE_SCHEMA (( 'CONFIG_CONTROL_DESIGN' ));
ENDSEC;

DATA;
#1 = CARTESIAN_POINT ( 'NONE',  ( 2.999999999999999112, 0.000000000000000000, 0.000000000000000000 ) ) ;
#2 = AXIS2_PLACEMENT_3D ( 'NONE', #187, #309, #204 ) ;
#3 = FACE_OUTER_BOUND ( 'NONE', #229, .T. ) ;
#4 = ADVANCED_FACE ( 'NONE', ( #14, #3 ), #141, .F. ) ;
#5 = ORIENTED_EDGE ( 'NONE', *, *, #68, .F. ) ;
#6 = DIRECTION ( 'NONE',  ( 0.000000000000000000, 0.000000000000000000, 1.000000000000000000 ) ) ;
#7 = ADVANCED_FACE ( 'NONE', ( #260 ), #158, .F. ) ;
#8 = ORGANIZATION ( 'UNSPECIFIED', 'UNSPECIFIED', '' ) ;
#9 = AXIS2_PLACEMENT_3D ( 'NONE', #268, #34, #6 ) ;
#10 = APPROVAL_STATUS ( 'not_yet_approved' ) ;
#11 = ORIENTED_EDGE ( 'NONE', *, *, #83, .T. ) ;
#12 = LOCAL_TIME ( 10, 43, 31.00000000000000000, #311 ) ;
#13 = DIRECTION ( 'NONE',  ( -1.000000000000000000, -0.000000000000000000, -0.000000000000000000 ) ) ;
#14 = FACE_BOUND ( 'NONE', #94, .T. ) ;
#15 = APPLICATION_CONTEXT ( 'configuration controlled 3d designs of mechanical parts and assemblies' ) ;
#16 = FACE_OUTER_BOUND ( 'NONE', #176, .T. ) ;
#17 = EDGE_CURVE ( 'NONE', #201, #106, #295, .T. ) ;
#18 = EDGE_LOOP ( 'NONE', ( #170, #279 ) ) ;
#19 = CARTESIAN_POINT ( 'NONE',  ( -0.5000000000000006661, 0.000000000000000000, 0.000000000000000000 ) ) ;
#20 = ORIENTED_EDGE ( 'NONE', *, *, #87, .T. ) ;
#21 = EDGE_CURVE ( 'NONE', #172, #135, #233, .T. ) ;
#22 =( NAMED_UNIT ( * ) SI_UNIT ( $, .STERADIAN. ) SOLID_ANGLE_UNIT ( ) );
#23 = ORIENTED_EDGE ( 'NONE', *, *, #259, .T. ) ;
#24 = DIRECTION ( 'NONE',  ( -1.000000000000000000, -0.000000000000000000, -0.000000000000000000 ) ) ;
#25 = PERSON_AND_ORGANIZATION ( #181, #8 ) ;
#26 = LOCAL_TIME ( 10, 43, 31.00000000000000000, #307 ) ;
#27 = CARTESIAN_POINT ( 'NONE',  ( 0.5000000000000013323, 0.000000000000000000, 10.00000000000000000 ) ) ;
#28 = DATE_TIME_ROLE ( 'classification_date' ) ;
#29 = CARTESIAN_POINT ( 'NONE',  ( -3.000000000000000000, 0.000000000000000000, 0.000000000000000000 ) ) ;
#30 = DATE_TIME_ROLE ( 'creation_date' ) ;
#31 = AXIS2_PLACEMENT_3D ( 'NONE', #48, #258, #232 ) ;
#32 = DIRECTION ( 'NONE',  ( -1.000000000000000000, -0.000000000000000000, -0.000000000000000000 ) ) ;
#33 = CARTESIAN_POINT ( 'NONE',  ( -3.000000000000000000, 0.000000000000000000, 12.69999999999999929 ) ) ;
#34 = DIRECTION ( 'NONE',  ( -1.000000000000000000, -0.000000000000000000, -0.000000000000000000 ) ) ;
#35 = EDGE_CURVE ( 'NONE', #172, #120, #118, .T. ) ;
#36 = CIRCLE ( 'NONE', #31, 12.69999999999999929 ) ;
#37 = CYLINDRICAL_SURFACE ( 'NONE', #9, 10.00000000000000000 ) ;
#38 = CIRCLE ( 'NONE', #227, 10.00000000000000000 ) ;
#39 = PERSON_AND_ORGANIZATION_ROLE ( 'creator' ) ;
#40 = APPROVAL_DATE_TIME ( #286, #189 ) ;
#41 = CC_DESIGN_DATE_AND_TIME_ASSIGNMENT ( #317, #30, ( #246 ) ) ;
#42 = AXIS2_PLACEMENT_3D ( 'NONE', #44, #93, #250 ) ;
#43 = DESIGN_CONTEXT ( 'detailed design', #15, 'design' ) ;
#44 = CARTESIAN_POINT ( 'NONE',  ( -1.614212418857619014, 0.000000000000000000, 0.000000000000000000 ) ) ;
#45 = ORIENTED_EDGE ( 'NONE', *, *, #127, .F. ) ;
#46 = VERTEX_POINT ( 'NONE', #27 ) ;
#47 = PERSON_AND_ORGANIZATION_ROLE ( 'design_owner' ) ;
#48 = CARTESIAN_POINT ( 'NONE',  ( -3.000000000000000000, 0.000000000000000000, 0.000000000000000000 ) ) ;
#49 = AXIS2_PLACEMENT_3D ( 'NONE', #143, #290, #284 ) ;
#50 = APPROVAL_ROLE ( '' ) ;
#51 = PERSON_AND_ORGANIZATION ( #181, #8 ) ;
#52 = EDGE_CURVE ( 'NONE', #46, #277, #129, .T. ) ;
#53 = DIRECTION ( 'NONE',  ( -1.000000000000000000, -0.000000000000000000, -0.000000000000000000 ) ) ;
#54 = APPROVAL_ROLE ( '' ) ;
#55 = EDGE_CURVE ( 'NONE', #297, #125, #101, .T. ) ;
#56 = DIRECTION ( 'NONE',  ( -1.000000000000000000, -0.000000000000000000, -0.000000000000000000 ) ) ;
#57 = DIRECTION ( 'NONE',  ( 0.000000000000000000, 0.000000000000000000, 1.000000000000000000 ) ) ;
#58 = PERSON_AND_ORGANIZATION ( #181, #8 ) ;
#59 = VECTOR ( 'NONE', #165, 1000.000000000000000 ) ;
#60 = CARTESIAN_POINT ( 'NONE',  ( 2.999999999999999556, 12.69999999999999929, 0.000000000000000000 ) ) ;
#61 = EDGE_CURVE ( 'NONE', #125, #297, #324, .T. ) ;
#62 = CARTESIAN_POINT ( 'NONE',  ( -3.000000000000000000, 0.000000000000000000, 10.00000000000000000 ) ) ;
#63 = ORIENTED_EDGE ( 'NONE', *, *, #35, .T. ) ;
#64 = ORIENTED_EDGE ( 'NONE', *, *, #98, .F. ) ;
#65 = AXIS2_PLACEMENT_3D ( 'NONE', #111, #265, #90 ) ;
#66 = ORIENTED_EDGE ( 'NONE', *, *, #17, .F. ) ;
#67 = AXIS2_PLACEMENT_3D ( 'NONE', #107, #281, #175 ) ;
#68 = EDGE_CURVE ( 'NONE', #253, #135, #264, .T. ) ;
#69 = CARTESIAN_POINT ( 'NONE',  ( -1.614212418857619014, 0.000000000000000000, 0.000000000000000000 ) ) ;
#70 = VECTOR ( 'NONE', #195, 1000.000000000000000 ) ;
#71 = EDGE_LOOP ( 'NONE', ( #269, #294 ) ) ;
#72 = CARTESIAN_POINT ( 'NONE',  ( -1.614212418857619014, 0.000000000000000000, 0.000000000000000000 ) ) ;
#73 = ORIENTED_EDGE ( 'NONE', *, *, #203, .F. ) ;
#74 = MECHANICAL_CONTEXT ( 'NONE', #75, 'mechanical' ) ;
#75 = APPLICATION_CONTEXT ( 'configuration controlled 3d designs of mechanical parts and assemblies' ) ;
#76 = CC_DESIGN_APPROVAL ( #256, ( #124 ) ) ;
#77 = PERSON_AND_ORGANIZATION ( #181, #8 ) ;
#78 = CARTESIAN_POINT ( 'NONE',  ( -1.614212418857619014, 1.555301434917138433E-15, -12.69999999999999929 ) ) ;
#79 = CC_DESIGN_PERSON_AND_ORGANIZATION_ASSIGNMENT ( #51, #261, ( #92 ) ) ;
#80 = APPROVAL_STATUS ( 'not_yet_approved' ) ;
#81 = PERSON_AND_ORGANIZATION ( #181, #8 ) ;
#82 = VECTOR ( 'NONE', #335, 1000.000000000000000 ) ;
#83 = EDGE_CURVE ( 'NONE', #135, #253, #36, .T. ) ;
#84 = CARTESIAN_POINT ( 'NONE',  ( -0.5000000000000006661, 0.000000000000000000, 10.00000000000000000 ) ) ;
#85 = CIRCLE ( 'NONE', #173, 10.00000000000000000 ) ;
#86 = PERSON_AND_ORGANIZATION ( #181, #8 ) ;
#87 = EDGE_CURVE ( 'NONE', #297, #277, #213, .T. ) ;
#88 = DIRECTION ( 'NONE',  ( 0.000000000000000000, 0.000000000000000000, 1.000000000000000000 ) ) ;
#89 = DATE_AND_TIME ( #144, #177 ) ;
#90 = DIRECTION ( 'NONE',  ( 0.000000000000000000, 0.000000000000000000, -1.000000000000000000 ) ) ;
#91 = CARTESIAN_POINT ( 'NONE',  ( -1.614212418857619014, 0.000000000000000000, 10.00000000000000000 ) ) ;
#92 = SECURITY_CLASSIFICATION ( '', '', #312 ) ;
#93 = DIRECTION ( 'NONE',  ( -1.000000000000000000, -0.000000000000000000, -0.000000000000000000 ) ) ;
#94 = EDGE_LOOP ( 'NONE', ( #198, #73 ) ) ;
#95 = CC_DESIGN_DATE_AND_TIME_ASSIGNMENT ( #266, #28, ( #92 ) ) ;
#96 = CALENDAR_DATE ( 2021, 5, 1 ) ;
#97 = ORIENTED_EDGE ( 'NONE', *, *, #83, .F. ) ;
#98 = EDGE_CURVE ( 'NONE', #277, #46, #85, .T. ) ;
#99 = FACE_OUTER_BOUND ( 'NONE', #302, .T. ) ;
#100 = ORIENTED_EDGE ( 'NONE', *, *, #259, .F. ) ;
#101 = CIRCLE ( 'NONE', #2, 10.00000000000000000 ) ;
#102 = ORIENTED_EDGE ( 'NONE', *, *, #273, .T. ) ;
#103 = DIRECTION ( 'NONE',  ( 1.000000000000000000, 0.000000000000000000, 0.000000000000000000 ) ) ;
#104 = AXIS2_PLACEMENT_3D ( 'NONE', #146, #128, #325 ) ;
#105 = LINE ( 'NONE', #180, #275 ) ;
#106 = VERTEX_POINT ( 'NONE', #84 ) ;
#107 = CARTESIAN_POINT ( 'NONE',  ( 0.000000000000000000, 0.000000000000000000, 0.000000000000000000 ) ) ;
#108 =( GEOMETRIC_REPRESENTATION_CONTEXT ( 3 ) GLOBAL_UNCERTAINTY_ASSIGNED_CONTEXT ( ( #150 ) ) GLOBAL_UNIT_ASSIGNED_CONTEXT ( ( #140, #205, #22 ) ) REPRESENTATION_CONTEXT ( 'NONE', 'WORKASPACE' ) );
#109 = CIRCLE ( 'NONE', #276, 12.69999999999999929 ) ;
#110 = CC_DESIGN_PERSON_AND_ORGANIZATION_ASSIGNMENT ( #116, #244, ( #246 ) ) ;
#111 = CARTESIAN_POINT ( 'NONE',  ( -3.000000000000000000, 10.00000000000000000, 0.000000000000000000 ) ) ;
#112 = CARTESIAN_POINT ( 'NONE',  ( -1.614212418857619014, 0.000000000000000000, 0.000000000000000000 ) ) ;
#113 = DIRECTION ( 'NONE',  ( 0.000000000000000000, 0.000000000000000000, 1.000000000000000000 ) ) ;
#114 = VECTOR ( 'NONE', #206, 1000.000000000000000 ) ;
#115 = CARTESIAN_POINT ( 'NONE',  ( 3.000000000000000000, 0.000000000000000000, 12.69999999999999929 ) ) ;
#116 = PERSON_AND_ORGANIZATION ( #181, #8 ) ;
#117 = CARTESIAN_POINT ( 'NONE',  ( -3.000000000000000000, 1.555301434917138433E-15, -12.69999999999999929 ) ) ;
#118 = CIRCLE ( 'NONE', #196, 12.69999999999999929 ) ;
#119 = ADVANCED_FACE ( 'NONE', ( #255 ), #137, .F. ) ;
#120 = VERTEX_POINT ( 'NONE', #115 ) ;
#121 = ADVANCED_FACE ( 'NONE', ( #310, #211 ), #289, .F. ) ;
#122 = PERSON_AND_ORGANIZATION ( #181, #8 ) ;
#123 = ORIENTED_EDGE ( 'NONE', *, *, #21, .F. ) ;
#124 = PRODUCT_DEFINITION_FORMATION_WITH_SPECIFIED_SOURCE ( 'ANY', '', #326, .NOT_KNOWN. ) ;
#125 = VERTEX_POINT ( 'NONE', #226 ) ;
#126 = CARTESIAN_POINT ( 'NONE',  ( 3.000000000000000000, 1.555301434917138433E-15, -12.69999999999999929 ) ) ;
#127 = EDGE_CURVE ( 'NONE', #106, #133, #292, .T. ) ;
#128 = DIRECTION ( 'NONE',  ( -1.000000000000000000, -0.000000000000000000, -0.000000000000000000 ) ) ;
#129 = CIRCLE ( 'NONE', #49, 10.00000000000000000 ) ;
#130 = ORIENTED_EDGE ( 'NONE', *, *, #98, .T. ) ;
#131 = CYLINDRICAL_SURFACE ( 'NONE', #267, 10.00000000000000000 ) ;
#132 = CIRCLE ( 'NONE', #210, 10.00000000000000000 ) ;
#133 = VERTEX_POINT ( 'NONE', #62 ) ;
#134 = ADVANCED_FACE ( 'NONE', ( #99 ), #315, .F. ) ;
#135 = VERTEX_POINT ( 'NONE', #117 ) ;
#136 = ADVANCED_FACE ( 'NONE', ( #16 ), #199, .F. ) ;
#137 = PLANE ( 'NONE',  #238 ) ;
#138 = LOCAL_TIME ( 10, 43, 31.00000000000000000, #184 ) ;
#139 = DIRECTION ( 'NONE',  ( 0.000000000000000000, 0.000000000000000000, 1.000000000000000000 ) ) ;
#140 =( LENGTH_UNIT ( ) NAMED_UNIT ( * ) SI_UNIT ( .MILLI., .METRE. ) );
#141 = PLANE ( 'NONE',  #65 ) ;
#142 = COORDINATED_UNIVERSAL_TIME_OFFSET ( 8, 0, .AHEAD. ) ;
#143 = CARTESIAN_POINT ( 'NONE',  ( 0.5000000000000013323, 0.000000000000000000, 0.000000000000000000 ) ) ;
#144 = CALENDAR_DATE ( 2021, 5, 1 ) ;
#145 = CC_DESIGN_PERSON_AND_ORGANIZATION_ASSIGNMENT ( #86, #148, ( #124 ) ) ;
#146 = CARTESIAN_POINT ( 'NONE',  ( -3.000000000000000000, 0.000000000000000000, 0.000000000000000000 ) ) ;
#147 = EDGE_LOOP ( 'NONE', ( #316, #225, #331, #102 ) ) ;
#148 = PERSON_AND_ORGANIZATION_ROLE ( 'design_supplier' ) ;
#149 = ORIENTED_EDGE ( 'NONE', *, *, #159, .T. ) ;
#150 = UNCERTAINTY_MEASURE_WITH_UNIT (LENGTH_MEASURE( 1.000000000000000082E-05 ), #140, 'distance_accuracy_value', 'NONE');
#151 = EDGE_LOOP ( 'NONE', ( #219, #64 ) ) ;
#152 = DIRECTION ( 'NONE',  ( 0.000000000000000000, 0.000000000000000000, 1.000000000000000000 ) ) ;
#153 = CARTESIAN_POINT ( 'NONE',  ( -0.5000000000000006661, 1.224646799147353256E-15, -10.00000000000000000 ) ) ;
#154 = ORIENTED_EDGE ( 'NONE', *, *, #87, .F. ) ;
#155 = DIRECTION ( 'NONE',  ( 1.000000000000000000, 0.000000000000000000, 0.000000000000000000 ) ) ;
#156 = DIRECTION ( 'NONE',  ( -1.000000000000000000, -0.000000000000000000, -0.000000000000000000 ) ) ;
#157 = FACE_OUTER_BOUND ( 'NONE', #319, .T. ) ;
#158 = CYLINDRICAL_SURFACE ( 'NONE', #332, 10.00000000000000000 ) ;
#159 = EDGE_CURVE ( 'NONE', #125, #46, #270, .T. ) ;
#160 = DIRECTION ( 'NONE',  ( 0.000000000000000000, 0.000000000000000000, 1.000000000000000000 ) ) ;
#161 = CARTESIAN_POINT ( 'NONE',  ( 0.5000000000000013323, 0.000000000000000000, 0.000000000000000000 ) ) ;
#162 = DATE_AND_TIME ( #193, #216 ) ;
#163 = CC_DESIGN_APPROVAL ( #293, ( #92 ) ) ;
#164 = CYLINDRICAL_SURFACE ( 'NONE', #327, 12.69999999999999929 ) ;
#165 = DIRECTION ( 'NONE',  ( -1.000000000000000000, -0.000000000000000000, -0.000000000000000000 ) ) ;
#166 = EDGE_CURVE ( 'NONE', #120, #172, #109, .T. ) ;
#167 = DIRECTION ( 'NONE',  ( 0.000000000000000000, 0.000000000000000000, -1.000000000000000000 ) ) ;
#168 = CLOSED_SHELL ( 'NONE', ( #234, #186, #308, #119, #134, #7, #4, #330, #121, #136 ) ) ;
#169 = ORIENTED_EDGE ( 'NONE', *, *, #55, .F. ) ;
#170 = ORIENTED_EDGE ( 'NONE', *, *, #61, .T. ) ;
#171 = CARTESIAN_POINT ( 'NONE',  ( -3.000000000000000000, 0.000000000000000000, 0.000000000000000000 ) ) ;
#172 = VERTEX_POINT ( 'NONE', #126 ) ;
#173 = AXIS2_PLACEMENT_3D ( 'NONE', #161, #56, #160 ) ;
#174 = PRODUCT_RELATED_PRODUCT_CATEGORY ( 'detail', '', ( #326 ) ) ;
#175 = DIRECTION ( 'NONE',  ( 1.000000000000000000, 0.000000000000000000, 0.000000000000000000 ) ) ;
#176 = EDGE_LOOP ( 'NONE', ( #300, #66 ) ) ;
#177 = LOCAL_TIME ( 10, 43, 31.00000000000000000, #142 ) ;
#178 = CARTESIAN_POINT ( 'NONE',  ( 2.999999999999999112, 1.224646799147353256E-15, -10.00000000000000000 ) ) ;
#179 = DIRECTION ( 'NONE',  ( -1.000000000000000000, -0.000000000000000000, -0.000000000000000000 ) ) ;
#180 = CARTESIAN_POINT ( 'NONE',  ( -1.614212418857619014, 1.224646799147353256E-15, -10.00000000000000000 ) ) ;
#181 = PERSON ( 'UNSPECIFIED', 'UNSPECIFIED', 'UNSPECIFIED', ('UNSPECIFIED'), ('UNSPECIFIED'), ('UNSPECIFIED') ) ;
#182 = DIRECTION ( 'NONE',  ( 1.000000000000000000, 0.000000000000000000, 0.000000000000000000 ) ) ;
#183 = AXIS2_PLACEMENT_3D ( 'NONE', #1, #156, #240 ) ;
#184 = COORDINATED_UNIVERSAL_TIME_OFFSET ( 8, 0, .AHEAD. ) ;
#185 = DIRECTION ( 'NONE',  ( 0.000000000000000000, 0.000000000000000000, -1.000000000000000000 ) ) ;
#186 = ADVANCED_FACE ( 'NONE', ( #194 ), #37, .F. ) ;
#187 = CARTESIAN_POINT ( 'NONE',  ( 2.999999999999999112, 0.000000000000000000, 0.000000000000000000 ) ) ;
#188 = APPROVAL_DATE_TIME ( #89, #293 ) ;
#189 = APPROVAL ( #80, 'UNSPECIFIED' ) ;
#190 = CARTESIAN_POINT ( 'NONE',  ( -0.5000000000000006661, 0.000000000000000000, 0.000000000000000000 ) ) ;
#191 = DIRECTION ( 'NONE',  ( -1.000000000000000000, 0.000000000000000000, -0.000000000000000000 ) ) ;
#192 = ORIENTED_EDGE ( 'NONE', *, *, #159, .F. ) ;
#193 = CALENDAR_DATE ( 2021, 5, 1 ) ;
#194 = FACE_OUTER_BOUND ( 'NONE', #296, .T. ) ;
#195 = DIRECTION ( 'NONE',  ( -1.000000000000000000, -0.000000000000000000, -0.000000000000000000 ) ) ;
#196 = AXIS2_PLACEMENT_3D ( 'NONE', #287, #179, #88 ) ;
#197 = APPROVAL_PERSON_ORGANIZATION ( #58, #256, #271 ) ;
#198 = ORIENTED_EDGE ( 'NONE', *, *, #273, .F. ) ;
#199 = PLANE ( 'NONE',  #248 ) ;
#200 = DIRECTION ( 'NONE',  ( 0.000000000000000000, 0.000000000000000000, -1.000000000000000000 ) ) ;
#201 = VERTEX_POINT ( 'NONE', #153 ) ;
#202 = MANIFOLD_SOLID_BREP ( 'Ðý×', #168 ) ;
#203 = EDGE_CURVE ( 'NONE', #321, #133, #242, .T. ) ;
#204 = DIRECTION ( 'NONE',  ( 0.000000000000000000, 0.000000000000000000, 1.000000000000000000 ) ) ;
#205 =( NAMED_UNIT ( * ) PLANE_ANGLE_UNIT ( ) SI_UNIT ( $, .RADIAN. ) );
#206 = DIRECTION ( 'NONE',  ( -1.000000000000000000, -0.000000000000000000, -0.000000000000000000 ) ) ;
#207 = PRODUCT_DEFINITION_SHAPE ( 'NONE', 'NONE',  #246 ) ;
#208 = CC_DESIGN_PERSON_AND_ORGANIZATION_ASSIGNMENT ( #77, #47, ( #326 ) ) ;
#209 = CARTESIAN_POINT ( 'NONE',  ( -1.614212418857619014, 1.224646799147353256E-15, -10.00000000000000000 ) ) ;
#210 = AXIS2_PLACEMENT_3D ( 'NONE', #19, #155, #200 ) ;
#211 = FACE_BOUND ( 'NONE', #18, .T. ) ;
#212 = APPROVAL_DATE_TIME ( #162, #256 ) ;
#213 = LINE ( 'NONE', #209, #82 ) ;
#214 = CARTESIAN_POINT ( 'NONE',  ( -1.614212418857619014, 0.000000000000000000, 10.00000000000000000 ) ) ;
#215 = EDGE_LOOP ( 'NONE', ( #303, #217, #5, #100 ) ) ;
#216 = LOCAL_TIME ( 10, 43, 31.00000000000000000, #235 ) ;
#217 = ORIENTED_EDGE ( 'NONE', *, *, #21, .T. ) ;
#218 = ORIENTED_EDGE ( 'NONE', *, *, #328, .T. ) ;
#219 = ORIENTED_EDGE ( 'NONE', *, *, #52, .F. ) ;
#220 = AXIS2_PLACEMENT_3D ( 'NONE', #60, #191, #278 ) ;
#221 = ORIENTED_EDGE ( 'NONE', *, *, #52, .T. ) ;
#222 = AXIS2_PLACEMENT_3D ( 'NONE', #72, #24, #334 ) ;
#223 = CARTESIAN_POINT ( 'NONE',  ( -1.614212418857619014, 0.000000000000000000, 12.69999999999999929 ) ) ;
#224 = DIRECTION ( 'NONE',  ( -1.000000000000000000, -0.000000000000000000, -0.000000000000000000 ) ) ;
#225 = ORIENTED_EDGE ( 'NONE', *, *, #17, .T. ) ;
#226 = CARTESIAN_POINT ( 'NONE',  ( 2.999999999999999112, 0.000000000000000000, 10.00000000000000000 ) ) ;
#227 = AXIS2_PLACEMENT_3D ( 'NONE', #171, #274, #152 ) ;
#228 = DIRECTION ( 'NONE',  ( -1.000000000000000000, -0.000000000000000000, -0.000000000000000000 ) ) ;
#229 = EDGE_LOOP ( 'NONE', ( #245, #11 ) ) ;
#230 = AXIS2_PLACEMENT_3D ( 'NONE', #190, #182, #185 ) ;
#231 = CARTESIAN_POINT ( 'NONE',  ( 0.5000000000000006661, 10.00000000000000000, 0.000000000000000000 ) ) ;
#232 = DIRECTION ( 'NONE',  ( 0.000000000000000000, 0.000000000000000000, 1.000000000000000000 ) ) ;
#233 = LINE ( 'NONE', #78, #114 ) ;
#234 = ADVANCED_FACE ( 'NONE', ( #299 ), #164, .T. ) ;
#235 = COORDINATED_UNIVERSAL_TIME_OFFSET ( 8, 0, .AHEAD. ) ;
#236 = DIRECTION ( 'NONE',  ( -0.000000000000000000, 0.000000000000000000, 1.000000000000000000 ) ) ;
#237 = SHAPE_DEFINITION_REPRESENTATION ( #207, #272 ) ;
#238 = AXIS2_PLACEMENT_3D ( 'NONE', #231, #262, #236 ) ;
#239 = APPROVAL_PERSON_ORGANIZATION ( #122, #293, #54 ) ;
#240 = DIRECTION ( 'NONE',  ( 0.000000000000000000, 0.000000000000000000, 1.000000000000000000 ) ) ;
#241 = LINE ( 'NONE', #223, #285 ) ;
#242 = CIRCLE ( 'NONE', #104, 10.00000000000000000 ) ;
#243 = ORIENTED_EDGE ( 'NONE', *, *, #305, .T. ) ;
#244 = PERSON_AND_ORGANIZATION_ROLE ( 'creator' ) ;
#245 = ORIENTED_EDGE ( 'NONE', *, *, #68, .T. ) ;
#246 = PRODUCT_DEFINITION ( 'UNKNOWN', '', #124, #43 ) ;
#247 = CARTESIAN_POINT ( 'NONE',  ( 3.000000000000000000, 0.000000000000000000, 0.000000000000000000 ) ) ;
#248 = AXIS2_PLACEMENT_3D ( 'NONE', #313, #103, #167 ) ;
#249 = CARTESIAN_POINT ( 'NONE',  ( 0.5000000000000013323, 1.224646799147353256E-15, -10.00000000000000000 ) ) ;
#250 = DIRECTION ( 'NONE',  ( 0.000000000000000000, 0.000000000000000000, 1.000000000000000000 ) ) ;
#251 = EDGE_LOOP ( 'NONE', ( #123, #63, #23, #97 ) ) ;
#252 = APPLICATION_PROTOCOL_DEFINITION ( 'international standard', 'config_control_design', 1994, #75 ) ;
#253 = VERTEX_POINT ( 'NONE', #33 ) ;
#254 = CYLINDRICAL_SURFACE ( 'NONE', #222, 12.69999999999999929 ) ;
#255 = FACE_OUTER_BOUND ( 'NONE', #151, .T. ) ;
#256 = APPROVAL ( #10, 'UNSPECIFIED' ) ;
#257 = APPLICATION_PROTOCOL_DEFINITION ( 'international standard', 'config_control_design', 1994, #15 ) ;
#258 = DIRECTION ( 'NONE',  ( -1.000000000000000000, -0.000000000000000000, -0.000000000000000000 ) ) ;
#259 = EDGE_CURVE ( 'NONE', #120, #253, #241, .T. ) ;
#260 = FACE_OUTER_BOUND ( 'NONE', #147, .T. ) ;
#261 = PERSON_AND_ORGANIZATION_ROLE ( 'classification_officer' ) ;
#262 = DIRECTION ( 'NONE',  ( -1.000000000000000000, 0.000000000000000000, -0.000000000000000000 ) ) ;
#263 = CALENDAR_DATE ( 2021, 5, 1 ) ;
#264 = CIRCLE ( 'NONE', #318, 12.69999999999999929 ) ;
#265 = DIRECTION ( 'NONE',  ( 1.000000000000000000, 0.000000000000000000, 0.000000000000000000 ) ) ;
#266 = DATE_AND_TIME ( #291, #12 ) ;
#267 = AXIS2_PLACEMENT_3D ( 'NONE', #112, #228, #301 ) ;
#268 = CARTESIAN_POINT ( 'NONE',  ( -1.614212418857619014, 0.000000000000000000, 0.000000000000000000 ) ) ;
#269 = ORIENTED_EDGE ( 'NONE', *, *, #166, .F. ) ;
#270 = LINE ( 'NONE', #91, #70 ) ;
#271 = APPROVAL_ROLE ( '' ) ;
#272 = ADVANCED_BREP_SHAPE_REPRESENTATION ( 'QM-AAQWP-20-900-2100-M', ( #202, #67 ), #108 ) ;
#273 = EDGE_CURVE ( 'NONE', #133, #321, #38, .T. ) ;
#274 = DIRECTION ( 'NONE',  ( -1.000000000000000000, -0.000000000000000000, -0.000000000000000000 ) ) ;
#275 = VECTOR ( 'NONE', #283, 1000.000000000000000 ) ;
#276 = AXIS2_PLACEMENT_3D ( 'NONE', #247, #224, #57 ) ;
#277 = VERTEX_POINT ( 'NONE', #249 ) ;
#278 = DIRECTION ( 'NONE',  ( -0.000000000000000000, 0.000000000000000000, 1.000000000000000000 ) ) ;
#279 = ORIENTED_EDGE ( 'NONE', *, *, #55, .T. ) ;
#280 = CC_DESIGN_APPROVAL ( #189, ( #246 ) ) ;
#281 = DIRECTION ( 'NONE',  ( 0.000000000000000000, 0.000000000000000000, 1.000000000000000000 ) ) ;
#282 = CARTESIAN_POINT ( 'NONE',  ( -1.614212418857619014, 0.000000000000000000, 0.000000000000000000 ) ) ;
#283 = DIRECTION ( 'NONE',  ( -1.000000000000000000, -0.000000000000000000, -0.000000000000000000 ) ) ;
#284 = DIRECTION ( 'NONE',  ( 0.000000000000000000, 0.000000000000000000, 1.000000000000000000 ) ) ;
#285 = VECTOR ( 'NONE', #298, 1000.000000000000000 ) ;
#286 = DATE_AND_TIME ( #263, #138 ) ;
#287 = CARTESIAN_POINT ( 'NONE',  ( 3.000000000000000000, 0.000000000000000000, 0.000000000000000000 ) ) ;
#288 = APPROVAL_STATUS ( 'not_yet_approved' ) ;
#289 = PLANE ( 'NONE',  #220 ) ;
#290 = DIRECTION ( 'NONE',  ( -1.000000000000000000, -0.000000000000000000, -0.000000000000000000 ) ) ;
#291 = CALENDAR_DATE ( 2021, 5, 1 ) ;
#292 = LINE ( 'NONE', #214, #59 ) ;
#293 = APPROVAL ( #288, 'UNSPECIFIED' ) ;
#294 = ORIENTED_EDGE ( 'NONE', *, *, #35, .F. ) ;
#295 = CIRCLE ( 'NONE', #230, 10.00000000000000000 ) ;
#296 = EDGE_LOOP ( 'NONE', ( #243, #218, #306, #45 ) ) ;
#297 = VERTEX_POINT ( 'NONE', #178 ) ;
#298 = DIRECTION ( 'NONE',  ( -1.000000000000000000, -0.000000000000000000, -0.000000000000000000 ) ) ;
#299 = FACE_OUTER_BOUND ( 'NONE', #215, .T. ) ;
#300 = ORIENTED_EDGE ( 'NONE', *, *, #305, .F. ) ;
#301 = DIRECTION ( 'NONE',  ( 0.000000000000000000, 0.000000000000000000, 1.000000000000000000 ) ) ;
#302 = EDGE_LOOP ( 'NONE', ( #154, #329, #149, #221 ) ) ;
#303 = ORIENTED_EDGE ( 'NONE', *, *, #166, .T. ) ;
#304 = FACE_OUTER_BOUND ( 'NONE', #251, .T. ) ;
#305 = EDGE_CURVE ( 'NONE', #106, #201, #132, .T. ) ;
#306 = ORIENTED_EDGE ( 'NONE', *, *, #203, .T. ) ;
#307 = COORDINATED_UNIVERSAL_TIME_OFFSET ( 8, 0, .AHEAD. ) ;
#308 = ADVANCED_FACE ( 'NONE', ( #157 ), #131, .F. ) ;
#309 = DIRECTION ( 'NONE',  ( -1.000000000000000000, -0.000000000000000000, -0.000000000000000000 ) ) ;
#310 = FACE_OUTER_BOUND ( 'NONE', #71, .T. ) ;
#311 = COORDINATED_UNIVERSAL_TIME_OFFSET ( 8, 0, .AHEAD. ) ;
#312 = SECURITY_CLASSIFICATION_LEVEL ( 'unclassified' ) ;
#313 = CARTESIAN_POINT ( 'NONE',  ( -0.5000000000000006661, 10.00000000000000000, 0.000000000000000000 ) ) ;
#314 = CC_DESIGN_SECURITY_CLASSIFICATION ( #92, ( #124 ) ) ;
#315 = CYLINDRICAL_SURFACE ( 'NONE', #42, 10.00000000000000000 ) ;
#316 = ORIENTED_EDGE ( 'NONE', *, *, #328, .F. ) ;
#317 = DATE_AND_TIME ( #96, #26 ) ;
#318 = AXIS2_PLACEMENT_3D ( 'NONE', #29, #53, #113 ) ;
#319 = EDGE_LOOP ( 'NONE', ( #169, #20, #130, #192 ) ) ;
#320 = APPROVAL_PERSON_ORGANIZATION ( #25, #189, #50 ) ;
#321 = VERTEX_POINT ( 'NONE', #333 ) ;
#322 = DIRECTION ( 'NONE',  ( 0.000000000000000000, 0.000000000000000000, 1.000000000000000000 ) ) ;
#323 = CC_DESIGN_PERSON_AND_ORGANIZATION_ASSIGNMENT ( #81, #39, ( #124 ) ) ;
#324 = CIRCLE ( 'NONE', #183, 10.00000000000000000 ) ;
#325 = DIRECTION ( 'NONE',  ( 0.000000000000000000, 0.000000000000000000, 1.000000000000000000 ) ) ;
#326 = PRODUCT ( 'QM-AAQWP-20-900-2100-M', 'QM-AAQWP-20-900-2100-M', '', ( #74 ) ) ;
#327 = AXIS2_PLACEMENT_3D ( 'NONE', #69, #13, #322 ) ;
#328 = EDGE_CURVE ( 'NONE', #201, #321, #105, .T. ) ;
#329 = ORIENTED_EDGE ( 'NONE', *, *, #61, .F. ) ;
#330 = ADVANCED_FACE ( 'NONE', ( #304 ), #254, .T. ) ;
#331 = ORIENTED_EDGE ( 'NONE', *, *, #127, .T. ) ;
#332 = AXIS2_PLACEMENT_3D ( 'NONE', #282, #32, #139 ) ;
#333 = CARTESIAN_POINT ( 'NONE',  ( -3.000000000000000000, 1.224646799147353256E-15, -10.00000000000000000 ) ) ;
#334 = DIRECTION ( 'NONE',  ( 0.000000000000000000, 0.000000000000000000, 1.000000000000000000 ) ) ;
#335 = DIRECTION ( 'NONE',  ( -1.000000000000000000, -0.000000000000000000, -0.000000000000000000 ) ) ;
ENDSEC;
END-ISO-10303-21;
